ISO-10303-21;
HEADER;
FILE_DESCRIPTION (( 'STEP AP203' ),
    '1' );
FILE_NAME ('ICS01.1020.STEP',
    '2022-07-28T06:36:48',
    ( '' ),
    ( '' ),
    'SwSTEP 2.0',
    'SolidWorks 2021',
    '' );
FILE_SCHEMA (( 'CONFIG_CONTROL_DESIGN' ));
ENDSEC;

DATA;
#1 = CC_DESIGN_PERSON_AND_ORGANIZATION_ASSIGNMENT ( #107, #174, ( #57 ) ) ;
#2 = CALENDAR_DATE ( 2022, 28, 7 ) ;
#3 = DATE_AND_TIME ( #91, #61 ) ;
#4 = APPROVAL_ROLE ( '' ) ;
#5 = AXIS2_PLACEMENT_3D ( 'NONE', #194, #39, #17 ) ;
#6 = DATE_AND_TIME ( #178, #93 ) ;
#7 = ADVANCED_FACE ( 'NONE', ( #98 ), #101, .T. ) ;
#8 = VERTEX_POINT ( 'NONE', #145 ) ;
#9 = CARTESIAN_POINT ( 'NONE',  ( -4.000000000000000000, 0.000000000000000000, 1015.000000000000114 ) ) ;
#10 = ORIENTED_EDGE ( 'NONE', *, *, #15, .T. ) ;
#11 = CARTESIAN_POINT ( 'NONE',  ( 4.000000000000000000, 4.898587196589412829E-16, 1020.000000000000000 ) ) ;
#12 = CARTESIAN_POINT ( 'NONE',  ( 0.000000000000000000, 0.000000000000000000, 1020.000000000000000 ) ) ;
#13 = ADVANCED_FACE ( 'NONE', ( #66 ), #186, .T. ) ;
#14 = DIRECTION ( 'NONE',  ( 0.000000000000000000, 0.000000000000000000, 1.000000000000000000 ) ) ;
#15 = EDGE_CURVE ( 'NONE', #30, #47, #147, .T. ) ;
#16 = DIRECTION ( 'NONE',  ( -1.000000000000000000, 0.000000000000000000, 0.000000000000000000 ) ) ;
#17 = DIRECTION ( 'NONE',  ( 1.000000000000000000, 0.000000000000000000, 0.000000000000000000 ) ) ;
#18 = VECTOR ( 'NONE', #95, 999.9999999999998863 ) ;
#19 = DIRECTION ( 'NONE',  ( -0.000000000000000000, -0.000000000000000000, -1.000000000000000000 ) ) ;
#20 = APPROVAL_ROLE ( '' ) ;
#21 = COORDINATED_UNIVERSAL_TIME_OFFSET ( 3, 0, .AHEAD. ) ;
#22 = PERSON_AND_ORGANIZATION_ROLE ( 'classification_officer' ) ;
#23 = EDGE_CURVE ( 'NONE', #47, #216, #24, .T. ) ;
#24 = CIRCLE ( 'NONE', #157, 4.000000000000000000 ) ;
#25 = AXIS2_PLACEMENT_3D ( 'NONE', #190, #103, #206 ) ;
#26 = PERSON_AND_ORGANIZATION ( #224, #74 ) ;
#27 = CC_DESIGN_PERSON_AND_ORGANIZATION_ASSIGNMENT ( #176, #40, ( #158 ) ) ;
#28 = ORIENTED_EDGE ( 'NONE', *, *, #23, .F. ) ;
#29 = ORIENTED_EDGE ( 'NONE', *, *, #204, .T. ) ;
#30 = VERTEX_POINT ( 'NONE', #116 ) ;
#31 = AXIS2_PLACEMENT_3D ( 'NONE', #182, #185, #34 ) ;
#32 = DIRECTION ( 'NONE',  ( -0.000000000000000000, -0.000000000000000000, -1.000000000000000000 ) ) ;
#33 = LOCAL_TIME ( 9, 36, 48.00000000000000000, #21 ) ;
#34 = DIRECTION ( 'NONE',  ( 1.000000000000000000, 0.000000000000000000, 0.000000000000000000 ) ) ;
#35 = DIRECTION ( 'NONE',  ( -0.000000000000000000, -0.000000000000000000, -1.000000000000000000 ) ) ;
#36 = LOCAL_TIME ( 9, 36, 48.00000000000000000, #41 ) ;
#37 = CARTESIAN_POINT ( 'NONE',  ( 0.000000000000000000, 0.000000000000000000, 0.000000000000000000 ) ) ;
#38 = APPROVAL_STATUS ( 'not_yet_approved' ) ;
#39 = DIRECTION ( 'NONE',  ( 0.000000000000000000, 0.000000000000000000, 1.000000000000000000 ) ) ;
#40 = PERSON_AND_ORGANIZATION_ROLE ( 'design_supplier' ) ;
#41 = COORDINATED_UNIVERSAL_TIME_OFFSET ( 3, 0, .AHEAD. ) ;
#42 = COORDINATED_UNIVERSAL_TIME_OFFSET ( 3, 0, .AHEAD. ) ;
#43 = EDGE_CURVE ( 'NONE', #8, #144, #191, .T. ) ;
#44 = CIRCLE ( 'NONE', #215, 4.000000000000000000 ) ;
#45 = EDGE_LOOP ( 'NONE', ( #77, #114, #200, #217 ) ) ;
#46 = DIRECTION ( 'NONE',  ( -1.000000000000000000, 0.000000000000000000, 0.000000000000000000 ) ) ;
#47 = VERTEX_POINT ( 'NONE', #9 ) ;
#48 = CARTESIAN_POINT ( 'NONE',  ( 0.000000000000000000, 0.000000000000000000, 1020.000000000000000 ) ) ;
#49 = CARTESIAN_POINT ( 'NONE',  ( 0.000000000000000000, 0.000000000000000000, 1015.000000000000114 ) ) ;
#50 = VECTOR ( 'NONE', #131, 999.9999999999998863 ) ;
#51 = CYLINDRICAL_SURFACE ( 'NONE', #143, 4.000000000000000000 ) ;
#52 = ADVANCED_FACE ( 'NONE', ( #187 ), #51, .T. ) ;
#53 = AXIS2_PLACEMENT_3D ( 'NONE', #122, #19, #16 ) ;
#54 = CARTESIAN_POINT ( 'NONE',  ( 4.000000000000000000, 4.898587196589412829E-16, 1015.000000000000114 ) ) ;
#55 = CARTESIAN_POINT ( 'NONE',  ( -4.000000000000000000, 0.000000000000000000, 1020.000000000000000 ) ) ;
#56 =( NAMED_UNIT ( * ) PLANE_ANGLE_UNIT ( ) SI_UNIT ( $, .RADIAN. ) );
#57 = PRODUCT ( 'ICS01.1020', 'ICS01.1020', '', ( #155 ) ) ;
#58 = COORDINATED_UNIVERSAL_TIME_OFFSET ( 3, 0, .AHEAD. ) ;
#59 = PERSON_AND_ORGANIZATION ( #224, #74 ) ;
#60 = AXIS2_PLACEMENT_3D ( 'NONE', #12, #113, #84 ) ;
#61 = LOCAL_TIME ( 9, 36, 48.00000000000000000, #58 ) ;
#62 = PRODUCT_RELATED_PRODUCT_CATEGORY ( 'detail', '', ( #57 ) ) ;
#63 = ORIENTED_EDGE ( 'NONE', *, *, #85, .F. ) ;
#64 = LOCAL_TIME ( 9, 36, 48.00000000000000000, #156 ) ;
#65 = ORIENTED_EDGE ( 'NONE', *, *, #205, .F. ) ;
#66 = FACE_OUTER_BOUND ( 'NONE', #162, .T. ) ;
#67 = DIRECTION ( 'NONE',  ( -1.000000000000000000, 0.000000000000000000, 0.000000000000000000 ) ) ;
#68 = ORIENTED_EDGE ( 'NONE', *, *, #87, .F. ) ;
#69 = LINE ( 'NONE', #222, #50 ) ;
#70 = APPROVAL ( #38, 'BELÝRTÝLMEMÝÞ' ) ;
#71 = APPLICATION_PROTOCOL_DEFINITION ( 'international standard', 'config_control_design', 1994, #175 ) ;
#72 = APPROVAL_PERSON_ORGANIZATION ( #59, #166, #138 ) ;
#73 = CARTESIAN_POINT ( 'NONE',  ( -4.000000000000000000, 0.000000000000000000, 0.000000000000000000 ) ) ;
#74 = ORGANIZATION ( 'BELÝRTÝLMEMÝÞ', 'BELÝRTÝLMEMÝÞ', '' ) ;
#75 = DATE_TIME_ROLE ( 'classification_date' ) ;
#76 = EDGE_CURVE ( 'NONE', #81, #30, #214, .T. ) ;
#77 = ORIENTED_EDGE ( 'NONE', *, *, #23, .T. ) ;
#78 = ADVANCED_BREP_SHAPE_REPRESENTATION ( 'ICS01.1020', ( #100, #5 ), #126 ) ;
#79 = ORIENTED_EDGE ( 'NONE', *, *, #15, .F. ) ;
#80 = APPROVAL_PERSON_ORGANIZATION ( #105, #106, #4 ) ;
#81 = VERTEX_POINT ( 'NONE', #115 ) ;
#82 = ORIENTED_EDGE ( 'NONE', *, *, #180, .T. ) ;
#83 = DIRECTION ( 'NONE',  ( 1.000000000000000000, 0.000000000000000000, -0.000000000000000000 ) ) ;
#84 = DIRECTION ( 'NONE',  ( -1.000000000000000000, 0.000000000000000000, 0.000000000000000000 ) ) ;
#85 = EDGE_CURVE ( 'NONE', #216, #8, #201, .T. ) ;
#86 = DIRECTION ( 'NONE',  ( -0.000000000000000000, -0.000000000000000000, -1.000000000000000000 ) ) ;
#87 = EDGE_CURVE ( 'NONE', #81, #216, #69, .T. ) ;
#88 = PERSON_AND_ORGANIZATION ( #224, #74 ) ;
#89 = DIRECTION ( 'NONE',  ( -1.000000000000000000, 0.000000000000000000, 0.000000000000000000 ) ) ;
#90 = ADVANCED_FACE ( 'NONE', ( #163 ), #118, .F. ) ;
#91 = CALENDAR_DATE ( 2022, 28, 7 ) ;
#92 = APPROVAL_STATUS ( 'not_yet_approved' ) ;
#93 = LOCAL_TIME ( 9, 36, 48.00000000000000000, #42 ) ;
#94 = ADVANCED_FACE ( 'NONE', ( #203 ), #133, .T. ) ;
#95 = DIRECTION ( 'NONE',  ( -0.2873478855663511022, 0.000000000000000000, -0.9578262852211497647 ) ) ;
#96 = EDGE_LOOP ( 'NONE', ( #160, #164 ) ) ;
#97 = DIRECTION ( 'NONE',  ( -1.000000000000000000, 0.000000000000000000, 0.000000000000000000 ) ) ;
#98 = FACE_OUTER_BOUND ( 'NONE', #130, .T. ) ;
#99 = CARTESIAN_POINT ( 'NONE',  ( 0.000000000000000000, 0.000000000000000000, 0.000000000000000000 ) ) ;
#100 = MANIFOLD_SOLID_BREP ( 'Birleþtir1', #127 ) ;
#101 = CONICAL_SURFACE ( 'NONE', #60, 2.500000000000000000, 0.2914567944778729824 ) ;
#102 = APPROVAL_PERSON_ORGANIZATION ( #88, #70, #20 ) ;
#103 = DIRECTION ( 'NONE',  ( -0.000000000000000000, -0.000000000000000000, -1.000000000000000000 ) ) ;
#104 = AXIS2_PLACEMENT_3D ( 'NONE', #48, #14, #83 ) ;
#105 = PERSON_AND_ORGANIZATION ( #224, #74 ) ;
#106 = APPROVAL ( #110, 'BELÝRTÝLMEMÝÞ' ) ;
#107 = PERSON_AND_ORGANIZATION ( #224, #74 ) ;
#108 = DATE_AND_TIME ( #2, #33 ) ;
#109 = CALENDAR_DATE ( 2022, 28, 7 ) ;
#110 = APPROVAL_STATUS ( 'not_yet_approved' ) ;
#111 = CC_DESIGN_DATE_AND_TIME_ASSIGNMENT ( #225, #209, ( #159 ) ) ;
#112 = ORIENTED_EDGE ( 'NONE', *, *, #205, .T. ) ;
#113 = DIRECTION ( 'NONE',  ( -0.000000000000000000, -0.000000000000000000, -1.000000000000000000 ) ) ;
#114 = ORIENTED_EDGE ( 'NONE', *, *, #85, .T. ) ;
#115 = CARTESIAN_POINT ( 'NONE',  ( 2.500000000000000000, 3.980102097228897738E-16, 1020.000000000000000 ) ) ;
#116 = CARTESIAN_POINT ( 'NONE',  ( -2.500000000000000000, 0.000000000000000000, 1020.000000000000000 ) ) ;
#117 = AXIS2_PLACEMENT_3D ( 'NONE', #219, #135, #97 ) ;
#118 = PLANE ( 'NONE',  #171 ) ;
#119 = VECTOR ( 'NONE', #172, 1000.000000000000000 ) ;
#120 = CYLINDRICAL_SURFACE ( 'NONE', #25, 4.000000000000000000 ) ;
#121 = EDGE_CURVE ( 'NONE', #216, #47, #223, .T. ) ;
#122 = CARTESIAN_POINT ( 'NONE',  ( 0.000000000000000000, 0.000000000000000000, 1020.000000000000000 ) ) ;
#123 = CALENDAR_DATE ( 2022, 28, 7 ) ;
#124 = ADVANCED_FACE ( 'NONE', ( #136 ), #120, .T. ) ;
#125 = PERSON_AND_ORGANIZATION_ROLE ( 'creator' ) ;
#126 =( GEOMETRIC_REPRESENTATION_CONTEXT ( 3 ) GLOBAL_UNCERTAINTY_ASSIGNED_CONTEXT ( ( #179 ) ) GLOBAL_UNIT_ASSIGNED_CONTEXT ( ( #154, #56, #152 ) ) REPRESENTATION_CONTEXT ( 'NONE', 'WORKASPACE' ) );
#127 = CLOSED_SHELL ( 'NONE', ( #124, #13, #52, #7, #94, #90 ) ) ;
#128 = ORIENTED_EDGE ( 'NONE', *, *, #76, .F. ) ;
#129 = DIRECTION ( 'NONE',  ( -1.000000000000000000, 0.000000000000000000, 0.000000000000000000 ) ) ;
#130 = EDGE_LOOP ( 'NONE', ( #68, #202, #10, #181 ) ) ;
#131 = DIRECTION ( 'NONE',  ( 0.2873478855663511022, 3.518996683005917792E-17, -0.9578262852211497647 ) ) ;
#132 = DIRECTION ( 'NONE',  ( -0.000000000000000000, -0.000000000000000000, -1.000000000000000000 ) ) ;
#133 = PLANE ( 'NONE',  #104 ) ;
#134 = CARTESIAN_POINT ( 'NONE',  ( 0.000000000000000000, 0.000000000000000000, 1020.000000000000000 ) ) ;
#135 = DIRECTION ( 'NONE',  ( -0.000000000000000000, -0.000000000000000000, -1.000000000000000000 ) ) ;
#136 = FACE_OUTER_BOUND ( 'NONE', #45, .T. ) ;
#137 = DIRECTION ( 'NONE',  ( 0.000000000000000000, 0.000000000000000000, 1.000000000000000000 ) ) ;
#138 = APPROVAL_ROLE ( '' ) ;
#139 = APPROVAL_DATE_TIME ( #3, #70 ) ;
#140 = AXIS2_PLACEMENT_3D ( 'NONE', #134, #132, #129 ) ;
#141 = CC_DESIGN_DATE_AND_TIME_ASSIGNMENT ( #6, #75, ( #189 ) ) ;
#142 = EDGE_LOOP ( 'NONE', ( #65, #128 ) ) ;
#143 = AXIS2_PLACEMENT_3D ( 'NONE', #184, #35, #67 ) ;
#144 = VERTEX_POINT ( 'NONE', #73 ) ;
#145 = CARTESIAN_POINT ( 'NONE',  ( 4.000000000000000000, 4.898587196589412829E-16, 0.000000000000000000 ) ) ;
#146 = CARTESIAN_POINT ( 'NONE',  ( 0.000000000000000000, 0.000000000000000000, 1015.000000000000114 ) ) ;
#147 = LINE ( 'NONE', #221, #18 ) ;
#148 = DIRECTION ( 'NONE',  ( 0.000000000000000000, 0.000000000000000000, 1.000000000000000000 ) ) ;
#149 = AXIS2_PLACEMENT_3D ( 'NONE', #146, #86, #89 ) ;
#150 = CC_DESIGN_PERSON_AND_ORGANIZATION_ASSIGNMENT ( #195, #125, ( #158 ) ) ;
#151 = LINE ( 'NONE', #55, #119 ) ;
#152 =( NAMED_UNIT ( * ) SI_UNIT ( $, .STERADIAN. ) SOLID_ANGLE_UNIT ( ) );
#153 = CC_DESIGN_SECURITY_CLASSIFICATION ( #189, ( #158 ) ) ;
#154 =( LENGTH_UNIT ( ) NAMED_UNIT ( * ) SI_UNIT ( .MILLI., .METRE. ) );
#155 = MECHANICAL_CONTEXT ( 'NONE', #175, 'mechanical' ) ;
#156 = COORDINATED_UNIVERSAL_TIME_OFFSET ( 3, 0, .AHEAD. ) ;
#157 = AXIS2_PLACEMENT_3D ( 'NONE', #49, #199, #46 ) ;
#158 = PRODUCT_DEFINITION_FORMATION_WITH_SPECIFIED_SOURCE ( 'HERHANGÝ', '', #57, .NOT_KNOWN. ) ;
#159 = PRODUCT_DEFINITION ( 'BÝLÝNMEYEN', '', #158, #213 ) ;
#160 = ORIENTED_EDGE ( 'NONE', *, *, #204, .F. ) ;
#161 = ORIENTED_EDGE ( 'NONE', *, *, #87, .T. ) ;
#162 = EDGE_LOOP ( 'NONE', ( #112, #161, #28, #79 ) ) ;
#163 = FACE_OUTER_BOUND ( 'NONE', #96, .T. ) ;
#164 = ORIENTED_EDGE ( 'NONE', *, *, #43, .F. ) ;
#165 = DIRECTION ( 'NONE',  ( 1.000000000000000000, 0.000000000000000000, -0.000000000000000000 ) ) ;
#166 = APPROVAL ( #92, 'BELÝRTÝLMEMÝÞ' ) ;
#167 = CC_DESIGN_APPROVAL ( #70, ( #159 ) ) ;
#168 = PERSON_AND_ORGANIZATION_ROLE ( 'creator' ) ;
#169 = PRODUCT_DEFINITION_SHAPE ( 'NONE', 'NONE',  #159 ) ;
#170 = APPLICATION_PROTOCOL_DEFINITION ( 'international standard', 'config_control_design', 1994, #220 ) ;
#171 = AXIS2_PLACEMENT_3D ( 'NONE', #99, #148, #165 ) ;
#172 = DIRECTION ( 'NONE',  ( -0.000000000000000000, -0.000000000000000000, -1.000000000000000000 ) ) ;
#173 = SHAPE_DEFINITION_REPRESENTATION ( #169, #78 ) ;
#174 = PERSON_AND_ORGANIZATION_ROLE ( 'design_owner' ) ;
#175 = APPLICATION_CONTEXT ( 'configuration controlled 3d designs of mechanical parts and assemblies' ) ;
#176 = PERSON_AND_ORGANIZATION ( #224, #74 ) ;
#177 = CC_DESIGN_APPROVAL ( #166, ( #158 ) ) ;
#178 = CALENDAR_DATE ( 2022, 28, 7 ) ;
#179 = UNCERTAINTY_MEASURE_WITH_UNIT (LENGTH_MEASURE( 1.000000000000000082E-05 ), #154, 'distance_accuracy_value', 'NONE');
#180 = EDGE_CURVE ( 'NONE', #47, #144, #151, .T. ) ;
#181 = ORIENTED_EDGE ( 'NONE', *, *, #121, .F. ) ;
#182 = CARTESIAN_POINT ( 'NONE',  ( 0.000000000000000000, 0.000000000000000000, 0.000000000000000000 ) ) ;
#183 = ORIENTED_EDGE ( 'NONE', *, *, #121, .T. ) ;
#184 = CARTESIAN_POINT ( 'NONE',  ( 0.000000000000000000, 0.000000000000000000, 1020.000000000000000 ) ) ;
#185 = DIRECTION ( 'NONE',  ( 0.000000000000000000, 0.000000000000000000, 1.000000000000000000 ) ) ;
#186 = CONICAL_SURFACE ( 'NONE', #140, 2.500000000000000000, 0.2914567944778729824 ) ;
#187 = FACE_OUTER_BOUND ( 'NONE', #218, .T. ) ;
#188 = CC_DESIGN_PERSON_AND_ORGANIZATION_ASSIGNMENT ( #26, #22, ( #189 ) ) ;
#189 = SECURITY_CLASSIFICATION ( '', '', #196 ) ;
#190 = CARTESIAN_POINT ( 'NONE',  ( 0.000000000000000000, 0.000000000000000000, 1020.000000000000000 ) ) ;
#191 = CIRCLE ( 'NONE', #31, 4.000000000000000000 ) ;
#192 = APPROVAL_DATE_TIME ( #207, #166 ) ;
#193 = CC_DESIGN_PERSON_AND_ORGANIZATION_ASSIGNMENT ( #211, #168, ( #159 ) ) ;
#194 = CARTESIAN_POINT ( 'NONE',  ( 0.000000000000000000, 0.000000000000000000, 0.000000000000000000 ) ) ;
#195 = PERSON_AND_ORGANIZATION ( #224, #74 ) ;
#196 = SECURITY_CLASSIFICATION_LEVEL ( 'unclassified' ) ;
#197 = CC_DESIGN_APPROVAL ( #106, ( #189 ) ) ;
#198 = CIRCLE ( 'NONE', #53, 2.500000000000000000 ) ;
#199 = DIRECTION ( 'NONE',  ( -0.000000000000000000, -0.000000000000000000, -1.000000000000000000 ) ) ;
#200 = ORIENTED_EDGE ( 'NONE', *, *, #43, .T. ) ;
#201 = LINE ( 'NONE', #11, #210 ) ;
#202 = ORIENTED_EDGE ( 'NONE', *, *, #76, .T. ) ;
#203 = FACE_OUTER_BOUND ( 'NONE', #142, .T. ) ;
#204 = EDGE_CURVE ( 'NONE', #144, #8, #44, .T. ) ;
#205 = EDGE_CURVE ( 'NONE', #30, #81, #198, .T. ) ;
#206 = DIRECTION ( 'NONE',  ( -1.000000000000000000, 0.000000000000000000, 0.000000000000000000 ) ) ;
#207 = DATE_AND_TIME ( #123, #64 ) ;
#208 = DIRECTION ( 'NONE',  ( 1.000000000000000000, 0.000000000000000000, 0.000000000000000000 ) ) ;
#209 = DATE_TIME_ROLE ( 'creation_date' ) ;
#210 = VECTOR ( 'NONE', #32, 1000.000000000000000 ) ;
#211 = PERSON_AND_ORGANIZATION ( #224, #74 ) ;
#212 = APPROVAL_DATE_TIME ( #108, #106 ) ;
#213 = DESIGN_CONTEXT ( 'detailed design', #220, 'design' ) ;
#214 = CIRCLE ( 'NONE', #117, 2.500000000000000000 ) ;
#215 = AXIS2_PLACEMENT_3D ( 'NONE', #37, #137, #208 ) ;
#216 = VERTEX_POINT ( 'NONE', #54 ) ;
#217 = ORIENTED_EDGE ( 'NONE', *, *, #180, .F. ) ;
#218 = EDGE_LOOP ( 'NONE', ( #63, #183, #82, #29 ) ) ;
#219 = CARTESIAN_POINT ( 'NONE',  ( 0.000000000000000000, 0.000000000000000000, 1020.000000000000000 ) ) ;
#220 = APPLICATION_CONTEXT ( 'configuration controlled 3d designs of mechanical parts and assemblies' ) ;
#221 = CARTESIAN_POINT ( 'NONE',  ( -2.500000000000000000, 0.000000000000000000, 1020.000000000000000 ) ) ;
#222 = CARTESIAN_POINT ( 'NONE',  ( 2.500000000000000000, 3.061616997868383141E-16, 1020.000000000000000 ) ) ;
#223 = CIRCLE ( 'NONE', #149, 4.000000000000000000 ) ;
#224 = PERSON ( 'BELÝRTÝLMEMÝÞ', 'BELÝRTÝLMEMÝÞ', 'BELÝRTÝLMEMÝÞ', ('BELÝRTÝLMEMÝÞ'), ('BELÝRTÝLMEMÝÞ'), ('BELÝRTÝLMEMÝÞ') ) ;
#225 = DATE_AND_TIME ( #109, #36 ) ;
ENDSEC;
END-ISO-10303-21;
